  0
SECTION
  2
HEADER
  9
$ACADVER
  1
AC1015
  9
$ACADMAINTVER
 70
     6
  9
$DWGCODEPAGE
  3
ANSI_1254
  9
$INSBASE
 10
0.0
 20
0.0
 30
0.0
  9
$EXTMIN
 10
0.0
 20
0.0
 30
0.0
  9
$EXTMAX
 10
279.4
 20
215.9
 30
0.0
  9
$LIMMIN
 10
0.0
 20
0.0
  9
$LIMMAX
 10
279.4
 20
215.9
  9
$ORTHOMODE
 70
     0
  9
$REGENMODE
 70
     1
  9
$FILLMODE
 70
     1
  9
$QTEXTMODE
 70
     0
  9
$MIRRTEXT
 70
     1
  9
$LTSCALE
 40
1.0
  9
$ATTMODE
 70
     1
  9
$TEXTSIZE
 40
3.5
  9
$TRACEWID
 40
1.0
  9
$TEXTSTYLE
  7
Standard
  9
$CLAYER
  8
0
  9
$CELTYPE
  6
ByLayer
  9
$CECOLOR
 62
   256
  9
$CELTSCALE
 40
1.0
  9
$DISPSILH
 70
     0
  9
$DIMSCALE
 40
1.0
  9
$DIMASZ
 40
3.5
  9
$DIMEXO
 40
1.0
  9
$DIMDLI
 40
3.75
  9
$DIMRND
 40
0.0
  9
$DIMDLE
 40
0.0
  9
$DIMEXE
 40
1.0
  9
$DIMTP
 40
0.0
  9
$DIMTM
 40
0.0
  9
$DIMTXT
 40
3.5
  9
$DIMCEN
 40
2.5
  9
$DIMTSZ
 40
0.0
  9
$DIMTOL
 70
     0
  9
$DIMLIM
 70
     0
  9
$DIMTIH
 70
     1
  9
$DIMTOH
 70
     1
  9
$DIMSE1
 70
     0
  9
$DIMSE2
 70
     0
  9
$DIMTAD
 70
     1
  9
$DIMZIN
 70
     0
  9
$DIMBLK
  1

  9
$DIMASO
 70
     1
  9
$DIMSHO
 70
     1
  9
$DIMPOST
  1

  9
$DIMAPOST
  1

  9
$DIMALT
 70
     0
  9
$DIMALTD
 70
     3
  9
$DIMALTF
 40
0.0393700787
  9
$DIMLFAC
 40
1.0
  9
$DIMTOFL
 70
     1
  9
$DIMTVP
 40
0.0
  9
$DIMTIX
 70
     0
  9
$DIMSOXD
 70
     0
  9
$DIMSAH
 70
     0
  9
$DIMBLK1
  1

  9
$DIMBLK2
  1

  9
$DIMSTYLE
  2
ISO-25
  9
$DIMCLRD
 70
     0
  9
$DIMCLRE
 70
     0
  9
$DIMCLRT
 70
     0
  9
$DIMTFAC
 40
1.0
  9
$DIMGAP
 40
1.524
  9
$DIMJUST
 70
     0
  9
$DIMSD1
 70
     0
  9
$DIMSD2
 70
     0
  9
$DIMTOLJ
 70
     0
  9
$DIMTZIN
 70
     0
  9
$DIMALTZ
 70
     0
  9
$DIMALTTZ
 70
     0
  9
$DIMUPT
 70
     0
  9
$DIMDEC
 70
     2
  9
$DIMTDEC
 70
     2
  9
$DIMALTU
 70
     2
  9
$DIMALTTD
 70
     3
  9
$DIMTXSTY
  7
Standard
  9
$DIMAUNIT
 70
     0
  9
$DIMADEC
 70
     2
  9
$DIMALTRND
 40
0.0
  9
$DIMAZIN
 70
     0
  9
$DIMDSEP
 70
    44
  9
$DIMATFIT
 70
     3
  9
$DIMFRAC
 70
     0
  9
$DIMLDRBLK
  1

  9
$DIMLUNIT
 70
     2
  9
$DIMLWD
 70
    -2
  9
$DIMLWE
 70
    -2
  9
$DIMTMOVE
 70
     0
  9
$LUNITS
 70
     2
  9
$LUPREC
 70
     2
  9
$SKETCHINC
 40
1.0
  9
$FILLETRAD
 40
10.0
  9
$AUNITS
 70
     0
  9
$AUPREC
 70
     2
  9
$MENU
  1
.
  9
$ELEVATION
 40
0.0
  9
$PELEVATION
 40
0.0
  9
$THICKNESS
 40
0.0
  9
$LIMCHECK
 70
     0
  9
$CHAMFERA
 40
0.0
  9
$CHAMFERB
 40
0.0
  9
$CHAMFERC
 40
0.0
  9
$CHAMFERD
 40
0.0
  9
$SKPOLY
 70
     0
  9
$TDCREATE
 40
2458985.646279479
  9
$TDUCREATE
 40
2458985.521279479
  9
$TDUPDATE
 40
2458985.646279792
  9
$TDUUPDATE
 40
2458985.521279792
  9
$TDINDWG
 40
0.0000000116
  9
$TDUSRTIMER
 40
0.0000000116
  9
$USRTIMER
 70
     1
  9
$ANGBASE
 50
0.0
  9
$ANGDIR
 70
     0
  9
$PDMODE
 70
     0
  9
$PDSIZE
 40
-1.0
  9
$PLINEWID
 40
0.0
  9
$SPLFRAME
 70
     0
  9
$SPLINETYPE
 70
     6
  9
$SPLINESEGS
 70
     8
  9
$HANDSEED
  5
C1
  9
$SURFTAB1
 70
     6
  9
$SURFTAB2
 70
     6
  9
$SURFTYPE
 70
     6
  9
$SURFU
 70
     6
  9
$SURFV
 70
     6
  9
$UCSBASE
  2

  9
$UCSNAME
  2

  9
$UCSORG
 10
0.0
 20
0.0
 30
0.0
  9
$UCSXDIR
 10
1.0
 20
0.0
 30
0.0
  9
$UCSYDIR
 10
0.0
 20
1.0
 30
0.0
  9
$UCSORTHOREF
  2

  9
$UCSORTHOVIEW
 70
     0
  9
$UCSORGTOP
 10
0.0
 20
0.0
 30
0.0
  9
$UCSORGBOTTOM
 10
0.0
 20
0.0
 30
0.0
  9
$UCSORGLEFT
 10
0.0
 20
0.0
 30
0.0
  9
$UCSORGRIGHT
 10
0.0
 20
0.0
 30
0.0
  9
$UCSORGFRONT
 10
0.0
 20
0.0
 30
0.0
  9
$UCSORGBACK
 10
0.0
 20
0.0
 30
0.0
  9
$PUCSBASE
  2

  9
$PUCSNAME
  2

  9
$PUCSORG
 10
0.0
 20
0.0
 30
0.0
  9
$PUCSXDIR
 10
1.0
 20
0.0
 30
0.0
  9
$PUCSYDIR
 10
0.0
 20
1.0
 30
0.0
  9
$PUCSORTHOREF
  2

  9
$PUCSORTHOVIEW
 70
     0
  9
$PUCSORGTOP
 10
0.0
 20
0.0
 30
0.0
  9
$PUCSORGBOTTOM
 10
0.0
 20
0.0
 30
0.0
  9
$PUCSORGLEFT
 10
0.0
 20
0.0
 30
0.0
  9
$PUCSORGRIGHT
 10
0.0
 20
0.0
 30
0.0
  9
$PUCSORGFRONT
 10
0.0
 20
0.0
 30
0.0
  9
$PUCSORGBACK
 10
0.0
 20
0.0
 30
0.0
  9
$USERI1
 70
     0
  9
$USERI2
 70
     0
  9
$USERI3
 70
     0
  9
$USERI4
 70
     0
  9
$USERI5
 70
     0
  9
$USERR1
 40
0.0
  9
$USERR2
 40
0.0
  9
$USERR3
 40
0.0
  9
$USERR4
 40
0.0
  9
$USERR5
 40
0.0
  9
$WORLDVIEW
 70
     1
  9
$SHADEDGE
 70
     3
  9
$SHADEDIF
 70
    70
  9
$TILEMODE
 70
     1
  9
$MAXACTVP
 70
    64
  9
$PINSBASE
 10
0.0
 20
0.0
 30
0.0
  9
$PLIMCHECK
 70
     0
  9
$PEXTMIN
 10
1.0000000000E+20
 20
1.0000000000E+20
 30
1.0000000000E+20
  9
$PEXTMAX
 10
-1.0000000000E+20
 20
-1.0000000000E+20
 30
-1.0000000000E+20
  9
$PLIMMIN
 10
0.0
 20
0.0
  9
$PLIMMAX
 10
420.0
 20
297.0
  9
$UNITMODE
 70
     0
  9
$VISRETAIN
 70
     1
  9
$PLINEGEN
 70
     0
  9
$PSLTSCALE
 70
     1
  9
$TREEDEPTH
 70
  3020
  9
$CMLSTYLE
  2
Standard
  9
$CMLJUST
 70
     0
  9
$CMLSCALE
 40
20.0
  9
$PROXYGRAPHICS
 70
     1
  9
$MEASUREMENT
 70
     1
  9
$CELWEIGHT
370
    -1
  9
$ENDCAPS
280
     0
  9
$JOINSTYLE
280
     0
  9
$LWDISPLAY
290
     1
  9
$INSUNITS
 70
     4
  9
$HYPERLINKBASE
  1

  9
$STYLESHEET
  1

  9
$XEDIT
290
     1
  9
$CEPSNTYPE
380
     0
  9
$PSTYLEMODE
290
     1
  9
$FINGERPRINTGUID
  2
{4e7d3883-bab9-4776-b465-a3b9431cc7f3}
  9
$VERSIONGUID
  2
{FAEB1C32-E019-11D5-929B-00C0DF256EC4}
  9
$EXTNAMES
290
     1
  9
$PSVPSCALE
 40
0.0
  9
$OLESTARTUP
290
     0
  0
ENDSEC
  0
SECTION
  2
CLASSES
  0
CLASS
  1
ACDBDICTIONARYWDFLT
  2
AcDbDictionaryWithDefault
  3
ObjectDBX Classes
 90
        0
280
     0
281
     0
  0
CLASS
  1
VISUALSTYLE
  2
AcDbVisualStyle
  3
ObjectDBX Classes
 90
     4095
280
     0
281
     0
  0
CLASS
  1
MATERIAL
  2
AcDbMaterial
  3
ObjectDBX Classes
 90
     1153
280
     0
281
     0
  0
CLASS
  1
SCALE
  2
AcDbScale
  3
ObjectDBX Classes
 90
     1153
280
     0
281
     0
  0
CLASS
  1
TABLESTYLE
  2
AcDbTableStyle
  3
ObjectDBX Classes
 90
     4095
280
     0
281
     0
  0
CLASS
  1
MLEADERSTYLE
  2
AcDbMLeaderStyle
  3
ACDB_MLEADERSTYLE_CLASS
 90
     4095
280
     0
281
     0
  0
CLASS
  1
SUN
  2
AcDbSun
  3
SCENEOE
 90
     1153
280
     0
281
     0
  0
CLASS
  1
ACDBPLACEHOLDER
  2
AcDbPlaceHolder
  3
ObjectDBX Classes
 90
        0
280
     0
281
     0
  0
CLASS
  1
LAYOUT
  2
AcDbLayout
  3
ObjectDBX Classes
 90
        0
280
     0
281
     0
  0
ENDSEC
  0
SECTION
  2
TABLES
  0
TABLE
  2
VPORT
  5
8
330
0
100
AcDbSymbolTable
 70
     1
  0
VPORT
  5
29
330
8
100
AcDbSymbolTableRecord
100
AcDbViewportTableRecord
  2
*Active
 70
     0
 10
0.0
 20
0.0
 11
1.0
 21
1.0
 12
139.7
 22
107.95
 13
0.0
 23
0.0
 14
10.0
 24
10.0
 15
10.0
 25
10.0
 16
0.0
 26
0.0
 36
1.0
 17
0.0
 27
0.0
 37
0.0
 40
215.9
 41
1.2941176471
 42
50.0
 43
0.0
 44
0.0
 50
0.0
 51
0.0
 71
     0
 72
  2000
 73
     1
 74
     3
 75
     0
 76
     0
 77
     0
 78
     0
281
     0
 65
     1
110
0.0
120
0.0
130
0.0
111
1.0
121
0.0
131
0.0
112
0.0
122
1.0
132
0.0
 79
     0
146
0.0
  0
ENDTAB
  0
TABLE
  2
LTYPE
  5
5
330
0
100
AcDbSymbolTable
 70
     6
  0
LTYPE
  5
14
330
5
100
AcDbSymbolTableRecord
100
AcDbLinetypeTableRecord
  2
ByBlock
 70
     0
  3

 72
    65
 73
     0
 40
0.0
  0
LTYPE
  5
15
330
5
100
AcDbSymbolTableRecord
100
AcDbLinetypeTableRecord
  2
ByLayer
 70
     0
  3

 72
    65
 73
     0
 40
0.0
  0
LTYPE
  5
16
330
5
100
AcDbSymbolTableRecord
100
AcDbLinetypeTableRecord
  2
Continuous
 70
     0
  3
Solid line
 72
    65
 73
     0
 40
0.0
  0
LTYPE
  5
6E
330
5
100
AcDbSymbolTableRecord
100
AcDbLinetypeTableRecord
  2
HIDDEN
 70
     0
  3
Hidden __ __ __ __ __ __ __ __ __ __ __ __ __ __
 72
    65
 73
     2
 40
1.905
 49
1.27
 74
     0
 49
-0.635
 74
     0
  0
LTYPE
  5
6F
330
5
100
AcDbSymbolTableRecord
100
AcDbLinetypeTableRecord
  2
PHANTOM
 70
     0
  3
Phantom ______  __  __  ______  __  __  ______
 72
    65
 73
     6
 40
12.7
 49
6.35
 74
     0
 49
-1.27
 74
     0
 49
1.27
 74
     0
 49
-1.27
 74
     0
 49
1.27
 74
     0
 49
-1.27
 74
     0
  0
LTYPE
  5
70
330
5
100
AcDbSymbolTableRecord
100
AcDbLinetypeTableRecord
  2
CENTER
 70
     0
  3
Center ____ _ ____ _ ____ _ ____ _ ____ _ ____
 72
    65
 73
     4
 40
10.16
 49
6.35
 74
     0
 49
-1.27
 74
     0
 49
1.27
 74
     0
 49
-1.27
 74
     0
  0
LTYPE
  5
71
330
5
100
AcDbSymbolTableRecord
100
AcDbLinetypeTableRecord
  2
CENTERX2
 70
     0
  3
Center (2x) ________  __  ________  __  _____
 72
    65
 73
     4
 40
20.32
 49
12.7
 74
     0
 49
-2.54
 74
     0
 49
2.54
 74
     0
 49
-2.54
 74
     0
  0
LTYPE
  5
72
330
5
100
AcDbSymbolTableRecord
100
AcDbLinetypeTableRecord
  2
DOT2
 70
     0
  3
Dot (.5x) ........................................
 72
    65
 73
     2
 40
0.635
 49
0.0
 74
     0
 49
-0.635
 74
     0
  0
ENDTAB
  0
TABLE
  2
LAYER
  5
2
330
0
100
AcDbSymbolTable
 70
    17
  0
LAYER
  5
10
330
2
100
AcDbSymbolTableRecord
100
AcDbLayerTableRecord
  2
0
 70
     0
 62
     7
  6
Continuous
370
    -3
390
F
  0
LAYER
  5
73
330
2
100
AcDbSymbolTableRecord
100
AcDbLayerTableRecord
  2
FORMAT
 70
     0
 62
     7
  6
Continuous
370
    -3
390
F
  0
LAYER
  5
74
330
2
100
AcDbSymbolTableRecord
100
AcDbLayerTableRecord
  2
YARDIMCI_GEOMETRI
 70
     0
 62
    -6
  6
Continuous
290
     0
370
    -3
390
F
  0
LAYER
  5
75
330
2
100
AcDbSymbolTableRecord
100
AcDbLayerTableRecord
  2
SAYFA_CERCEVESI
 70
     0
 62
     7
  6
Continuous
370
    25
390
F
  0
LAYER
  5
76
330
2
100
AcDbSymbolTableRecord
100
AcDbLayerTableRecord
  2
ANTET
 70
     0
 62
     7
  6
Continuous
370
    -3
390
F
  0
LAYER
  5
77
330
2
100
AcDbSymbolTableRecord
100
AcDbLayerTableRecord
  2
OLCU
 70
     0
 62
   150
  6
Continuous
370
    -3
390
F
  0
LAYER
  5
78
330
2
100
AcDbSymbolTableRecord
100
AcDbLayerTableRecord
  2
METIN
 70
     0
 62
    96
  6
Continuous
370
    -3
390
F
  0
LAYER
  5
79
330
2
100
AcDbSymbolTableRecord
100
AcDbLayerTableRecord
  2
BALON
 70
     0
 62
     5
  6
Continuous
370
    -3
390
F
  0
LAYER
  5
7A
330
2
100
AcDbSymbolTableRecord
100
AcDbLayerTableRecord
  2
VURGU
 70
     0
 62
     7
  6
Continuous
370
    -3
390
F
  0
LAYER
  5
7B
330
2
100
AcDbSymbolTableRecord
100
AcDbLayerTableRecord
  2
SILIK
 70
     0
 62
     7
  6
Continuous
370
    -3
390
F
  0
LAYER
  5
7C
330
2
100
AcDbSymbolTableRecord
100
AcDbLayerTableRecord
  2
MODEL
 70
     0
 62
     7
  6
Continuous
370
    -3
390
F
  0
LAYER
  5
7D
330
2
100
AcDbSymbolTableRecord
100
AcDbLayerTableRecord
  2
DETAYLANDıRMA
 70
     0
 62
   190
  6
Continuous
370
    -3
390
F
  0
LAYER
  5
7E
330
2
100
AcDbSymbolTableRecord
100
AcDbLayerTableRecord
  2
TOLERANS
 70
     0
 62
   230
  6
Continuous
370
    -3
390
F
  0
LAYER
  5
7F
330
2
100
AcDbSymbolTableRecord
100
AcDbLayerTableRecord
  2
MERKEZ_CIZGILERI
 70
     0
 62
    30
  6
Continuous
370
    -3
390
F
  0
LAYER
  5
80
330
2
100
AcDbSymbolTableRecord
100
AcDbLayerTableRecord
  2
KESIT-DETAY_CIZGILERI
 70
     0
 62
     7
  6
Continuous
370
    -3
390
F
  0
LAYER
  5
81
330
2
100
AcDbSymbolTableRecord
100
AcDbLayerTableRecord
  2
\U+041E\U+0421\U+0415\U+0412\U+042B\U+0415
 70
     0
 62
     7
  6
Continuous
370
    -3
390
F
  0
LAYER
  5
82
330
2
100
AcDbSymbolTableRecord
100
AcDbLayerTableRecord
  2
\U+0412\U+041E\U+0414\U+042F\U+041D\U+042B\U+0415_\U+0417\U+041D\U+0410\U+041A\U+0418
 70
     0
 62
    11
  6
Continuous
370
    -3
390
F
  0
ENDTAB
  0
TABLE
  2
STYLE
  5
3
330
0
100
AcDbSymbolTable
 70
     1
  0
STYLE
  5
11
330
3
100
AcDbSymbolTableRecord
100
AcDbTextStyleTableRecord
  2
Standard
 70
     0
 40
0.0
 41
1.0
 50
0.0
 71
     0
 42
3.5
  3
txt
  4

  0
ENDTAB
  0
TABLE
  2
VIEW
  5
6
330
0
100
AcDbSymbolTable
 70
     0
  0
ENDTAB
  0
TABLE
  2
UCS
  5
7
330
0
100
AcDbSymbolTable
 70
     0
  0
ENDTAB
  0
TABLE
  2
APPID
  5
9
330
0
100
AcDbSymbolTable
 70
     1
  0
APPID
  5
12
330
9
100
AcDbSymbolTableRecord
100
AcDbRegAppTableRecord
  2
ACAD
 70
     0
  0
ENDTAB
  0
TABLE
  2
DIMSTYLE
  5
A
330
0
100
AcDbSymbolTable
 70
     1
100
AcDbDimStyleTable
  0
DIMSTYLE
105
27
330
A
100
AcDbSymbolTableRecord
100
AcDbDimStyleTableRecord
  2
ISO-25
 70
     0
 41
2.5
 42
0.625
 43
3.75
 44
1.25
 73
     0
 74
     0
 77
     1
 78
     8
140
2.5
141
2.5
143
0.0393700787
147
0.625
171
     3
172
     1
178
     0
271
     2
272
     2
274
     3
278
    44
283
     0
284
     8
340
11
  0
ENDTAB
  0
TABLE
  2
BLOCK_RECORD
  5
1
330
0
100
AcDbSymbolTable
 70
     1
  0
BLOCK_RECORD
  5
1F
330
1
100
AcDbSymbolTableRecord
100
AcDbBlockTableRecord
  2
*Model_Space
340
22
  0
BLOCK_RECORD
  5
1B
330
1
100
AcDbSymbolTableRecord
100
AcDbBlockTableRecord
  2
*Paper_Space
340
1E
  0
BLOCK_RECORD
  5
23
330
1
100
AcDbSymbolTableRecord
100
AcDbBlockTableRecord
  2
*Paper_Space0
340
26
  0
ENDTAB
  0
ENDSEC
  0
SECTION
  2
BLOCKS
  0
BLOCK
  5
20
330
1F
100
AcDbEntity
  8
0
100
AcDbBlockBegin
  2
*Model_Space
 70
     0
 10
0.0
 20
0.0
 30
0.0
  3
*Model_Space
  1

  0
ENDBLK
  5
21
330
1F
100
AcDbEntity
  8
0
100
AcDbBlockEnd
  0
BLOCK
  5
1C
330
1B
100
AcDbEntity
 67
     1
  8
0
100
AcDbBlockBegin
  2
*Paper_Space
 70
     0
 10
0.0
 20
0.0
 30
0.0
  3
*Paper_Space
  1

  0
ENDBLK
  5
1D
330
1B
100
AcDbEntity
 67
     1
  8
0
100
AcDbBlockEnd
  0
BLOCK
  5
24
330
23
100
AcDbEntity
  8
0
100
AcDbBlockBegin
  2
*Paper_Space0
 70
     0
 10
0.0
 20
0.0
 30
0.0
  3
*Paper_Space0
  1

  0
ENDBLK
  5
25
330
23
100
AcDbEntity
  8
0
100
AcDbBlockEnd
  0
ENDSEC
  0
SECTION
  2
ENTITIES
  0
CIRCLE
  5
83
330
1F
100
AcDbEntity
  8
0
  6
Continuous
 62
     7
370
    25
100
AcDbCircle
 10
135.9944086538
 20
118.27271875
 30
0.0
 40
112.5
  0
CIRCLE
  5
84
330
1F
100
AcDbEntity
  8
0
  6
Continuous
 62
     7
370
    25
100
AcDbCircle
 10
135.9944086538
 20
118.27271875
 30
0.0
 40
92.0
  0
CIRCLE
  5
85
330
1F
100
AcDbEntity
  8
0
  6
Continuous
 62
     7
370
    25
100
AcDbCircle
 10
135.9944086538
 20
118.27271875
 30
0.0
 40
119.0
  0
CIRCLE
  5
86
330
1F
100
AcDbEntity
  8
0
  6
Continuous
 62
     7
370
    25
100
AcDbCircle
 10
135.9944086538
 20
118.27271875
 30
0.0
 40
134.0
  0
LINE
  5
87
330
1F
100
AcDbEntity
  8
0
  6
Continuous
 62
     7
370
    25
100
AcDbLine
 10
269.9944086538
 20
312.6280837697
 30
0.0
 11
269.9944086538
 21
344.6280837697
 31
0.0
  0
LINE
  5
88
330
1F
100
AcDbEntity
  8
0
  6
Continuous
 62
     7
370
    25
100
AcDbLine
 10
1.9944086538
 20
344.6280837697
 30
0.0
 11
1.9944086538
 21
312.6280837697
 31
0.0
  0
LINE
  5
89
330
1F
100
AcDbEntity
  8
0
  6
Continuous
 62
     7
370
    25
100
AcDbLine
 10
254.9944086538
 20
344.6280837697
 30
0.0
 11
248.4944086538
 21
379.6280837697
 31
0.0
  0
LINE
  5
8A
330
1F
100
AcDbEntity
  8
0
  6
Continuous
 62
     7
370
    25
100
AcDbLine
 10
23.4944086538
 20
379.6280837697
 30
0.0
 11
16.9944086538
 21
344.6280837697
 31
0.0
  0
LINE
  5
8B
330
1F
100
AcDbEntity
  8
0
  6
Continuous
 62
     7
370
    25
100
AcDbLine
 10
248.4944086538
 20
379.6280837697
 30
0.0
 11
248.4944086538
 21
432.6280837697
 31
0.0
  0
LINE
  5
8C
330
1F
100
AcDbEntity
  8
0
  6
Continuous
 62
     7
370
    25
100
AcDbLine
 10
23.4944086538
 20
432.6280837697
 30
0.0
 11
23.4944086538
 21
379.6280837697
 31
0.0
  0
LINE
  5
8D
330
1F
100
AcDbEntity
  8
0
  6
Continuous
 62
     7
370
    25
100
AcDbLine
 10
269.9944086538
 20
312.6280837697
 30
0.0
 11
1.9944086538
 21
312.6280837697
 31
0.0
  0
LINE
  5
8E
330
1F
100
AcDbEntity
  8
0
  6
Continuous
 62
     7
370
    25
100
AcDbLine
 10
269.9944086538
 20
344.6280837697
 30
0.0
 11
1.9944086538
 21
344.6280837697
 31
0.0
  0
LINE
  5
8F
330
1F
100
AcDbEntity
  8
0
  6
Continuous
 62
     7
370
    25
100
AcDbLine
 10
248.4944086538
 20
379.6280837697
 30
0.0
 11
23.4944086538
 21
379.6280837697
 31
0.0
  0
LINE
  5
90
330
1F
100
AcDbEntity
  8
0
  6
Continuous
 62
     7
370
    25
100
AcDbLine
 10
248.4944086538
 20
432.6280837697
 30
0.0
 11
23.4944086538
 21
432.6280837697
 31
0.0
  0
LINE
  5
91
330
1F
100
AcDbEntity
  8
0
  6
Continuous
 62
     7
370
    25
100
AcDbLine
 10
-138.0362318001
 20
252.27271875
 30
0.0
 11
-170.0362318001
 21
252.27271875
 31
0.0
  0
LINE
  5
92
330
1F
100
AcDbEntity
  8
0
  6
Continuous
 62
     7
370
    25
100
AcDbLine
 10
-170.0362318001
 20
-15.72728125
 30
0.0
 11
-138.0362318001
 21
-15.72728125
 31
0.0
  0
LINE
  5
93
330
1F
100
AcDbEntity
  8
0
  6
Continuous
 62
     7
370
    25
100
AcDbLine
 10
-170.0362318001
 20
237.27271875
 30
0.0
 11
-205.0362318001
 21
230.77271875
 31
0.0
  0
LINE
  5
94
330
1F
100
AcDbEntity
  8
0
  6
Continuous
 62
     7
370
    25
100
AcDbLine
 10
-205.0362318001
 20
5.77271875
 30
0.0
 11
-170.0362318001
 21
-0.72728125
 31
0.0
  0
LINE
  5
95
330
1F
100
AcDbEntity
  8
0
  6
Continuous
 62
     7
370
    25
100
AcDbLine
 10
-205.0362318001
 20
230.77271875
 30
0.0
 11
-258.0362318001
 21
230.77271875
 31
0.0
  0
LINE
  5
96
330
1F
100
AcDbEntity
  8
0
  6
Continuous
 62
     7
370
    25
100
AcDbLine
 10
-258.0362318001
 20
5.77271875
 30
0.0
 11
-205.0362318001
 21
5.77271875
 31
0.0
  0
LINE
  5
97
330
1F
100
AcDbEntity
  8
0
  6
Continuous
 62
     7
370
    25
100
AcDbLine
 10
-138.0362318001
 20
252.27271875
 30
0.0
 11
-138.0362318001
 21
-15.72728125
 31
0.0
  0
LINE
  5
98
330
1F
100
AcDbEntity
  8
0
  6
Continuous
 62
     7
370
    25
100
AcDbLine
 10
-170.0362318001
 20
252.27271875
 30
0.0
 11
-170.0362318001
 21
-15.72728125
 31
0.0
  0
LINE
  5
99
330
1F
100
AcDbEntity
  8
0
  6
Continuous
 62
     7
370
    25
100
AcDbLine
 10
-205.0362318001
 20
230.77271875
 30
0.0
 11
-205.0362318001
 21
5.77271875
 31
0.0
  0
LINE
  5
9A
330
1F
100
AcDbEntity
  8
0
  6
Continuous
 62
     7
370
    25
100
AcDbLine
 10
-258.0362318001
 20
230.77271875
 30
0.0
 11
-258.0362318001
 21
5.77271875
 31
0.0
  0
LINE
  5
9B
330
1F
100
AcDbEntity
  8
0
  6
Continuous
 62
     7
370
    25
100
AcDbLine
 10
1.9944086538
 20
-158.470038042
 30
0.0
 11
1.9944086538
 21
-190.470038042
 31
0.0
  0
LINE
  5
9C
330
1F
100
AcDbEntity
  8
0
  6
Continuous
 62
     7
370
    25
100
AcDbLine
 10
269.9944086538
 20
-190.470038042
 30
0.0
 11
269.9944086538
 21
-158.470038042
 31
0.0
  0
LINE
  5
9D
330
1F
100
AcDbEntity
  8
0
  6
Continuous
 62
     7
370
    25
100
AcDbLine
 10
16.9944086538
 20
-190.470038042
 30
0.0
 11
23.4944086538
 21
-225.470038042
 31
0.0
  0
LINE
  5
9E
330
1F
100
AcDbEntity
  8
0
  6
Continuous
 62
     7
370
    25
100
AcDbLine
 10
248.4944086538
 20
-225.470038042
 30
0.0
 11
254.9944086538
 21
-190.470038042
 31
0.0
  0
LINE
  5
9F
330
1F
100
AcDbEntity
  8
0
  6
Continuous
 62
     7
370
    25
100
AcDbLine
 10
23.4944086538
 20
-225.470038042
 30
0.0
 11
23.4944086538
 21
-278.470038042
 31
0.0
  0
LINE
  5
A0
330
1F
100
AcDbEntity
  8
0
  6
Continuous
 62
     7
370
    25
100
AcDbLine
 10
248.4944086538
 20
-278.470038042
 30
0.0
 11
248.4944086538
 21
-225.470038042
 31
0.0
  0
LINE
  5
A1
330
1F
100
AcDbEntity
  8
0
  6
Continuous
 62
     7
370
    25
100
AcDbLine
 10
1.9944086538
 20
-158.470038042
 30
0.0
 11
269.9944086538
 21
-158.470038042
 31
0.0
  0
LINE
  5
A2
330
1F
100
AcDbEntity
  8
0
  6
Continuous
 62
     7
370
    25
100
AcDbLine
 10
1.9944086538
 20
-190.470038042
 30
0.0
 11
269.9944086538
 21
-190.470038042
 31
0.0
  0
LINE
  5
A3
330
1F
100
AcDbEntity
  8
0
  6
Continuous
 62
     7
370
    25
100
AcDbLine
 10
23.4944086538
 20
-225.470038042
 30
0.0
 11
248.4944086538
 21
-225.470038042
 31
0.0
  0
LINE
  5
A4
330
1F
100
AcDbEntity
  8
0
  6
Continuous
 62
     7
370
    25
100
AcDbLine
 10
23.4944086538
 20
-278.470038042
 30
0.0
 11
248.4944086538
 21
-278.470038042
 31
0.0
  0
LINE
  5
A5
330
1F
100
AcDbEntity
  8
0
  6
Continuous
 62
     7
370
    25
100
AcDbLine
 10
410.864431029
 20
-15.72728125
 30
0.0
 11
442.864431029
 21
-15.72728125
 31
0.0
  0
LINE
  5
A6
330
1F
100
AcDbEntity
  8
0
  6
Continuous
 62
     7
370
    25
100
AcDbLine
 10
442.864431029
 20
252.27271875
 30
0.0
 11
410.864431029
 21
252.27271875
 31
0.0
  0
LINE
  5
A7
330
1F
100
AcDbEntity
  8
0
  6
Continuous
 62
     7
370
    25
100
AcDbLine
 10
442.864431029
 20
-0.72728125
 30
0.0
 11
477.864431029
 21
5.77271875
 31
0.0
  0
LINE
  5
A8
330
1F
100
AcDbEntity
  8
0
  6
Continuous
 62
     7
370
    25
100
AcDbLine
 10
477.864431029
 20
230.77271875
 30
0.0
 11
442.864431029
 21
237.27271875
 31
0.0
  0
LINE
  5
A9
330
1F
100
AcDbEntity
  8
0
  6
Continuous
 62
     7
370
    25
100
AcDbLine
 10
477.864431029
 20
5.77271875
 30
0.0
 11
530.864431029
 21
5.77271875
 31
0.0
  0
LINE
  5
AA
330
1F
100
AcDbEntity
  8
0
  6
Continuous
 62
     7
370
    25
100
AcDbLine
 10
530.864431029
 20
230.77271875
 30
0.0
 11
477.864431029
 21
230.77271875
 31
0.0
  0
LINE
  5
AB
330
1F
100
AcDbEntity
  8
0
  6
Continuous
 62
     7
370
    25
100
AcDbLine
 10
410.864431029
 20
118.27271875
 30
0.0
 11
410.864431029
 21
252.27271875
 31
0.0
  0
LINE
  5
AC
330
1F
100
AcDbEntity
  8
0
  6
Continuous
 62
     7
370
    25
100
AcDbLine
 10
410.864431029
 20
-15.72728125
 30
0.0
 11
410.864431029
 21
118.27271875
 31
0.0
  0
LINE
  5
AD
330
1F
100
AcDbEntity
  8
0
  6
Continuous
 62
     7
370
    25
100
AcDbLine
 10
442.864431029
 20
118.27271875
 30
0.0
 11
442.864431029
 21
252.27271875
 31
0.0
  0
LINE
  5
AE
330
1F
100
AcDbEntity
  8
0
  6
Continuous
 62
     7
370
    25
100
AcDbLine
 10
442.864431029
 20
-15.72728125
 30
0.0
 11
442.864431029
 21
118.27271875
 31
0.0
  0
LINE
  5
AF
330
1F
100
AcDbEntity
  8
0
  6
Continuous
 62
     7
370
    25
100
AcDbLine
 10
477.864431029
 20
118.27271875
 30
0.0
 11
477.864431029
 21
230.77271875
 31
0.0
  0
LINE
  5
B0
330
1F
100
AcDbEntity
  8
0
  6
Continuous
 62
     7
370
    25
100
AcDbLine
 10
477.864431029
 20
5.77271875
 30
0.0
 11
477.864431029
 21
118.27271875
 31
0.0
  0
LINE
  5
B1
330
1F
100
AcDbEntity
  8
0
  6
Continuous
 62
     7
370
    25
100
AcDbLine
 10
530.864431029
 20
118.27271875
 30
0.0
 11
530.864431029
 21
230.77271875
 31
0.0
  0
LINE
  5
B2
330
1F
100
AcDbEntity
  8
0
  6
Continuous
 62
     7
370
    25
100
AcDbLine
 10
530.864431029
 20
5.77271875
 30
0.0
 11
530.864431029
 21
118.27271875
 31
0.0
  0
LINE
  5
B3
330
1F
100
AcDbEntity
  8
0
  6
Continuous
 62
     7
370
    25
100
AcDbLine
 10
504.4640063857
 20
-94.4176174292
 30
0.0
 11
466.9873469828
 21
-72.7828024659
 31
0.0
  0
LINE
  5
B4
330
1F
100
AcDbEntity
  8
0
  6
Continuous
 62
     7
370
    25
100
AcDbLine
 10
354.4964895613
 20
-267.6437965016
 30
0.0
 11
391.9731489641
 21
-289.2786114649
 31
0.0
  0
LINE
  5
B5
330
1F
100
AcDbEntity
  8
0
  6
Continuous
 62
     7
370
    25
100
AcDbLine
 10
524.1323707221
 20
-99.4566920052
 30
0.0
 11
500.753968883
 21
-92.2758583675
 31
0.0
  0
LINE
  5
B6
330
1F
100
AcDbEntity
  8
0
  6
Continuous
 62
     7
370
    25
100
AcDbLine
 10
388.2631114615
 20
-287.1368524032
 30
0.0
 11
406.1726596098
 21
-303.7910449505
 31
0.0
  0
LINE
  5
B7
330
1F
100
AcDbEntity
  8
0
  6
Continuous
 62
     7
370
    25
100
AcDbLine
 10
562.589287101
 20
-103.1472386341
 30
0.0
 11
539.9618701031
 21
-90.0847088449
 31
0.0
  0
LINE
  5
B8
330
1F
100
AcDbEntity
  8
0
  6
Continuous
 62
     7
370
    25
100
AcDbLine
 10
405.9727599298
 20
-322.1858039629
 30
0.0
 11
428.6001769278
 21
-335.2483337521
 31
0.0
  0
LWPOLYLINE
  5
B9
330
1F
100
AcDbEntity
  8
0
  6
Continuous
 62
     7
370
    25
100
AcDbPolyline
 90
      128
 70
   128
 43
0.0
 10
331.1924053885
 20
-216.1362557738
 10
331.2897408827
 20
-211.5372048697
 10
331.5815091688
 20
-206.8370274444
 10
332.066996241
 20
-202.0472256198
 10
332.7450140311
 20
-197.1795208434
 10
333.613903316
 20
-192.2458252046
 10
334.6715377778
 20
-187.2582122833
 10
335.915329208
 20
-182.2288876042
 10
337.3422338405
 20
-177.1701587674
 10
338.9487598004
 20
-172.0944053303
 10
340.7309756496
 20
-167.0140485119
 10
342.6845200072
 20
-161.9415207967
 10
344.8046122229
 20
-156.8892355101
 10
347.0860640756
 20
-151.8695564407
 10
349.5232924705
 20
-146.8947675845
 10
352.1103331013
 20
-141.9770430834
 10
354.8408550459
 20
-137.1284174333
 10
357.7081762596
 20
-132.3607560336
 10
360.705279927
 20
-127.6857261507
 10
363.8248316332
 20
-123.1147683662
 10
367.0591973123
 20
-118.6590685798
 10
370.4004619296
 20
-114.3295306353
 10
373.8404488506
 20
-110.1367496378
 10
377.370739851
 20
-106.0909860248
 10
380.982695717
 20
-102.202140458
 10
384.6674773874
 20
-98.479729594
 10
388.4160675839
 20
-94.932862796
 10
392.2192928783
 20
-91.5702198415
 10
396.0678461409
 20
-88.4000296812
 10
399.9523093169
 20
-85.4300503017
 10
403.8631764741
 20
-82.6675497401
 10
407.7908770651
 20
-80.1192882984
 10
411.7257993485
 20
-77.7915019992
 10
415.65831391
 20
-75.6898873257
 10
419.5787972276
 20
-73.8195872812
 10
423.4776552215
 20
-72.1851788033
 10
427.345346733
 20
-70.7906615635
 10
431.1724068728
 20
-69.639448179
 10
434.9494701833
 20
-68.7343558619
 10
438.6672935579
 20
-68.0775995249
 10
442.3167788597
 20
-67.6707863607
 10
445.8889951865
 20
-67.5149119093
 10
449.3752007265
 20
-67.6103576217
 10
452.7668641505
 20
-67.9568899261
 10
456.0556854897
 20
-68.5536607999
 10
459.2336164473
 20
-69.3992098449
 10
462.2928800936
 20
-70.4914678608
 10
465.2259898978
 20
-71.8277619091
 10
468.0257680489
 20
-73.4048218546
 10
470.6853630203
 20
-75.2187883671
 10
473.1982663377
 20
-77.2652223667
 10
475.5583285054
 20
-79.5391158865
 10
477.7597740559
 20
-82.0349043279
 10
479.7972156831
 20
-84.7464800785
 10
481.6656674257
 20
-87.667207458
 10
483.3605568694
 20
-90.789938957
 10
484.8777363356
 20
-94.1070327283
 10
486.213493032
 20
-97.6103712876
 10
487.3645581381
 20
-101.2913813783
 10
488.3281148046
 20
-105.1410549521
 10
489.101805047
 20
-109.1499712124
 10
489.6837355156
 20
-113.3083196695
 10
490.072482129
 20
-117.6059241479
 10
490.267093559
 20
-122.0322676892
 10
490.267093559
 20
-126.576518289
 10
490.072482129
 20
-131.2275554048
 10
489.6837355156
 20
-135.9739971691
 10
489.101805047
 20
-140.8042282438
 10
488.3281148046
 20
-145.706428244
 10
487.3645581381
 20
-150.6686006647
 10
486.213493032
 20
-155.6786022385
 10
484.8777363356
 20
-160.7241726521
 10
483.3605568694
 20
-165.7929645492
 10
481.6656674257
 20
-170.8725737466
 10
479.7972156831
 20
-175.9505695894
 10
477.7597740559
 20
-181.0145253708
 10
475.5583285054
 20
-186.0520487425
 10
473.1982663377
 20
-191.0508120407
 10
470.6853630203
 20
-195.9985824538
 10
468.0257680489
 20
-200.8832519586
 10
465.2259898978
 20
-205.6928669504
 10
462.2928800936
 20
-210.4156574952
 10
459.2336164473
 20
-215.0400661331
 10
456.0556854897
 20
-219.5547761614
 10
452.7668641505
 20
-223.948739328
 10
449.3752007265
 20
-228.2112028688
 10
445.8889951865
 20
-232.3317358212
 10
442.3167788597
 20
-236.3002545506
 10
438.6672935579
 20
-240.1070474267
 10
434.9494701833
 20
-243.7427985894
 10
431.1724068728
 20
-247.1986107463
 10
427.345346733
 20
-250.466026946
 10
423.4776552215
 20
-253.5370512735
 10
419.5787972276
 20
-256.4041684178
 10
415.65831391
 20
-259.0603620626
 10
411.7257993485
 20
-261.499132057
 10
407.7908770651
 20
-263.7145103223
 10
403.8631764741
 20
-265.7010754564
 10
399.9523093169
 20
-267.4539660018
 10
396.0678461409
 20
-268.9688923414
 10
392.2192928783
 20
-270.2421471967
 10
388.4160675839
 20
-271.2706146996
 10
384.6674773874
 20
-272.0517780179
 10
380.982695717
 20
-272.583725514
 10
377.370739851
 20
-272.8651554232
 10
373.8404488506
 20
-272.8953790394
 10
370.4004619296
 20
-272.6743224004
 10
367.0591973123
 20
-272.2025264687
 10
363.8248316332
 20
-271.4811458081
 10
360.705279927
 20
-270.511945758
 10
357.7081762596
 20
-269.2972981132
 10
354.8408550459
 20
-267.8401753202
 10
352.1103331012
 20
-266.1441432024
 10
349.5232924705
 20
-264.2133522349
 10
347.0860640756
 20
-262.0525273865
 10
344.8046122229
 20
-259.6669565578
 10
342.6845200072
 20
-257.0624776404
 10
340.7309756496
 20
-254.2454642305
 10
338.9487598004
 20
-251.2228100322
 10
337.3422338405
 20
-248.0019119866
 10
335.915329208
 20
-244.5906521711
 10
334.6715377778
 20
-240.9973785101
 10
333.613903316
 20
-237.2308843463
 10
332.7450140311
 20
-233.300386922
 10
332.066996241
 20
-229.2155048233
 10
331.5815091688
 20
-224.9862344409
 10
331.2897408827
 20
-220.6229255084
 10
331.1924053885
 20
-216.1362557738
  0
LWPOLYLINE
  5
BA
330
1F
100
AcDbEntity
  8
0
  6
Continuous
 62
     7
370
    25
100
AcDbPolyline
 90
      116
 70
   128
 43
0.0
 10
345.6880944029
 20
-207.7680726276
 10
345.7851674923
 20
-203.6096934582
 10
346.0760970562
 20
-199.3516463233
 10
346.5600148466
 20
-195.0066389091
 10
347.2354766625
 20
-190.5876384253
 10
348.1004666603
 20
-186.1078329064
 10
349.15240337
 20
-181.5805918526
 10
350.388147399
 20
-177.0194263307
 10
351.8040108014
 20
-172.4379486512
 10
353.3957680842
 20
-167.8498317442
 10
355.1586688183
 20
-163.2687683539
 10
357.0874518148
 20
-158.708430174
 10
359.1763608273
 20
-154.1824270458
 10
361.4191617302
 20
-149.7042663417
 10
363.8091611242
 20
-145.2873126532
 10
366.3392263117
 20
-140.9447479062
 10
369.0018065838
 20
-136.6895320207
 10
371.7889557545
 20
-132.5343642333
 10
374.6923558752
 20
-128.4916451977
 10
377.7033420588
 20
-124.5734399766
 10
380.8129283391
 20
-120.7914420343
 10
384.0118344885
 20
-117.1569383392
 10
387.2905137137
 20
-113.6807756786
 10
390.6391811474
 20
-110.3733282883
 10
394.0478430497
 20
-107.2444668912
 10
397.5063266338
 20
-104.3035292395
 10
401.0043104254
 20
-101.559292247
 10
404.531355066
 20
-99.0199457955
 10
408.0769344682
 20
-96.6930682928
 10
411.6304672295
 20
-94.5856040559
 10
415.1813482115
 20
-92.7038425865
 10
418.7189801897
 20
-91.0533998004
 10
422.2328054798
 20
-89.6392012675
 10
425.7123374462
 20
-88.465467512
 10
429.147191798
 20
-87.5357014169
 10
432.5271175796
 20
-86.8526777695
 10
435.8420277641
 20
-86.4184349809
 10
439.0820293567
 20
-86.2342690022
 10
442.2374529193
 20
-86.3007294571
 10
445.2988814275
 20
-86.6176180016
 10
448.2571783757
 20
-87.1839889155
 10
451.1035150429
 20
-87.9981519255
 10
453.8293968419
 20
-89.0576772493
 10
456.42668867
 20
-90.3594028467
 10
458.8876391875
 20
-91.899443857
 10
461.2049039508
 20
-93.6732041925
 10
463.3715673313
 20
-95.6753902553
 10
465.3811631536
 20
-97.9000267352
 10
467.2276939942
 20
-100.3404744425
 10
468.9056490791
 20
-102.9894501222
 10
470.410020731
 20
-105.8390481897
 10
471.7363193135
 20
-108.8807643243
 10
472.8805866304
 20
-112.1055208496
 10
473.8394077383
 20
-115.5036938248
 10
474.6099211382
 20
-119.0651417659
 10
475.1898273151
 20
-122.7792359127
 10
475.5773956013
 20
-126.6348919484
 10
475.7714693405
 20
-130.62060308
 10
475.7714693405
 20
-134.7244743789
 10
475.5773956013
 20
-138.9342582803
 10
475.1898273151
 20
-143.2373911344
 10
474.6099211382
 20
-147.6210307014
 10
473.8394077383
 20
-152.0720944781
 10
472.8805866304
 20
-156.5772987405
 10
471.7363193135
 20
-161.1231981887
 10
470.410020731
 20
-165.6962260718
 10
468.9056490791
 20
-170.2827346773
 10
467.2276939942
 20
-174.8690360609
 10
465.3811631536
 20
-179.4414428967
 10
463.3715673313
 20
-183.9863093256
 10
461.2049039508
 20
-188.4900716799
 10
458.8876391875
 20
-192.9392889625
 10
456.42668867
 20
-197.3206829604
 10
453.8293968419
 20
-201.6211778719
 10
451.1035150429
 20
-205.8279393299
 10
448.2571783757
 20
-209.9284127049
 10
445.2988814275
 20
-213.9103605726
 10
442.2374529193
 20
-217.7618992355
 10
439.0820293567
 20
-221.4715341886
 10
435.8420277641
 20
-225.028194423
 10
432.5271175796
 20
-228.4212654668
 10
429.147191798
 20
-231.6406210624
 10
425.7123374462
 20
-234.6766533874
 10
422.2328054798
 20
-237.520301728
 10
418.7189801897
 20
-240.1630795199
 10
415.1813482115
 20
-242.5970996755
 10
411.6304672295
 20
-244.8150981221
 10
408.0769344682
 20
-246.8104554804
 10
404.531355066
 20
-248.5772168199
 10
401.0043104254
 20
-250.1101094304
 10
397.5063266338
 20
-251.4045585578
 10
394.0478430497
 20
-252.4567010572
 10
390.6391811474
 20
-253.2633969218
 10
387.2905137137
 20
-253.8222386542
 10
384.0118344885
 20
-254.1315584508
 10
380.8129283391
 20
-254.1904331799
 10
377.7033420588
 20
-253.9986871362
 10
374.6923558752
 20
-253.5568925652
 10
371.7889557545
 20
-252.8663679556
 10
369.0018065838
 20
-251.9291741041
 10
366.3392263117
 20
-250.7481079656
 10
363.8091611242
 20
-249.3266943057
 10
361.4191617302
 20
-247.6691751813
 10
359.1763608273
 20
-245.780497281
 10
357.0874518148
 20
-243.666297162
 10
355.1586688183
 20
-241.3328844284
 10
353.3957680842
 20
-238.7872229009
 10
351.8040108014
 20
-236.0369098339
 10
350.388147399
 20
-233.0901532428
 10
349.15240337
 20
-229.9557474073
 10
348.1004666603
 20
-226.6430466263
 10
347.2354766625
 20
-223.161937301
 10
346.5600148466
 20
-219.5228084299
 10
346.0760970562
 20
-215.7365206037
 10
345.7851674923
 20
-211.8143735936
 10
345.6880944029
 20
-207.7680726276
  0
LWPOLYLINE
  5
BB
330
1F
100
AcDbEntity
  8
0
  6
Continuous
 62
     7
370
    25
100
AcDbPolyline
 90
       66
 70
   128
 43
0.0
 10
504.4640063857
 20
-94.4176174292
 10
505.5024274517
 20
-95.0396368179
 10
508.1620224232
 20
-96.8536033304
 10
510.6749257406
 20
-98.90003733
 10
513.0349879083
 20
-101.1739308498
 10
515.2364334588
 20
-103.6697192912
 10
517.2738750859
 20
-106.3812950418
 10
519.1423268286
 20
-109.3020224213
 10
520.8372162723
 20
-112.4247539203
 10
522.3543957385
 20
-115.7418476916
 10
523.6901524349
 20
-119.2451862509
 10
524.841217541
 20
-122.9261963416
 10
525.8047742075
 20
-126.7758699154
 10
526.5784644499
 20
-130.7847861757
 10
527.1603949185
 20
-134.9431346328
 10
527.5491415318
 20
-139.2407391112
 10
527.7437529619
 20
-143.6670826525
 10
527.7437529619
 20
-148.2113332523
 10
527.5491415318
 20
-152.8623703681
 10
527.1603949185
 20
-157.6088121324
 10
526.5784644499
 20
-162.4390432071
 10
525.8047742075
 20
-167.3412432073
 10
524.841217541
 20
-172.303415628
 10
523.6901524349
 20
-177.3134172018
 10
522.3543957385
 20
-182.3589876154
 10
520.8372162723
 20
-187.4277795125
 10
519.1423268286
 20
-192.5073887099
 10
517.2738750859
 20
-197.5853845527
 10
515.2364334588
 20
-202.6493403341
 10
513.0349879083
 20
-207.6868637058
 10
510.6749257406
 20
-212.685627004
 10
508.1620224232
 20
-217.6333974171
 10
505.5024274517
 20
-222.5180669219
 10
502.7026493007
 20
-227.3276819137
 10
499.7695394965
 20
-232.0504724585
 10
496.7102758502
 20
-236.6748810964
 10
493.5323448926
 20
-241.1895911247
 10
490.2435235534
 20
-245.5835542913
 10
486.8518601294
 20
-249.8460178321
 10
483.3656545894
 20
-253.9665507845
 10
479.7934382626
 20
-257.9350695139
 10
476.1439529608
 20
-261.74186239
 10
472.4261295862
 20
-265.3776135527
 10
468.6490662756
 20
-268.8334257096
 10
464.8220061359
 20
-272.1008419093
 10
460.9543146244
 20
-275.1718662368
 10
457.0554566305
 20
-278.0389833811
 10
453.1349733129
 20
-280.6951770259
 10
449.2024587514
 20
-283.1339470203
 10
445.267536468
 20
-285.3493252856
 10
441.339835877
 20
-287.3358904197
 10
437.4289687198
 20
-289.0887809651
 10
433.5445055438
 20
-290.6037073047
 10
429.6959522812
 20
-291.87696216
 10
425.8927269868
 20
-292.9054296629
 10
422.1441367902
 20
-293.6865929812
 10
418.4593551199
 20
-294.2185404773
 10
414.8473992539
 20
-294.4999703865
 10
411.3171082535
 20
-294.5301940027
 10
407.8771213325
 20
-294.3091373637
 10
404.5358567152
 20
-293.837341432
 10
401.3014910361
 20
-293.1159607714
 10
398.1819393299
 20
-292.1467607213
 10
395.1848356625
 20
-290.9321130765
 10
392.3175144488
 20
-289.4749902835
 10
391.9731489641
 20
-289.2786114649
  0
LWPOLYLINE
  5
BC
330
1F
100
AcDbEntity
  8
0
  6
Continuous
 62
     7
370
    25
100
AcDbPolyline
 90
       73
 70
   128
 43
0.0
 10
524.1323707221
 20
-99.4566920052
 10
526.1046783131
 20
-100.1170979106
 10
529.1717357157
 20
-101.3751162236
 10
532.1095211495
 20
-102.8740862161
 10
534.911277614
 20
-104.610560209
 10
537.5705609795
 20
-106.5805442566
 10
540.081254809
 20
-108.7795073324
 10
542.4375844263
 20
-111.2023917509
 10
544.6341301978
 20
-113.8436248002
 10
546.6658399978
 20
-116.6971315598
 10
548.5280408286
 20
-119.7563488725
 10
550.2164495686
 20
-123.0142404407
 10
551.7271828238
 20
-126.4633130092
 10
553.056765859
 20
-130.0956336007
 10
554.2021405908
 20
-133.9028477613
 10
555.1606726206
 20
-137.8761987765
 10
555.930157294
 20
-142.0065478117
 10
556.5088247716
 20
-146.2843949316
 10
556.8953440996
 20
-150.6999009509
 10
557.0888262712
 20
-155.2429100642
 10
557.0888262712
 20
-159.9029732049
 10
556.8953440996
 20
-164.6693720785
 10
556.5088247716
 20
-169.5311438149
 10
555.930157294
 20
-174.4771061832
 10
555.1606726206
 20
-179.4958833115
 10
554.2021405908
 20
-184.5759318516
 10
553.056765859
 20
-189.705567529
 10
551.7271828238
 20
-194.8729920174
 10
550.2164495686
 20
-200.0663200747
 10
548.5280408286
 20
-205.2736068801
 10
546.6658399978
 20
-210.482875507
 10
544.6341301978
 20
-215.6821444706
 10
542.4375844263
 20
-220.8594552858
 10
540.081254809
 20
-226.0028999717
 10
537.5705609795
 20
-231.1006484407
 10
534.911277614
 20
-236.140975708
 10
532.1095211495
 20
-241.1122888593
 10
529.1717357157
 20
-246.0031537152
 10
526.1046783131
 20
-250.8023211296
 10
522.9154032722
 20
-255.4987528638
 10
519.6112460277
 20
-260.0816469743
 10
516.1998062471
 20
-264.5404626577
 10
512.6889303513
 20
-268.8649444952
 10
509.0866934673
 20
-273.0451460398
 10
505.4013808554
 20
-277.0714526941
 10
501.6414688527
 20
-280.9346038237
 10
497.8156053773
 20
-284.6257140573
 10
493.9325900379
 20
-288.136293723
 10
490.001353894
 20
-291.4582683752
 10
486.0309389149
 20
-294.5839973656
 10
482.0304771821
 20
-297.5062914174
 10
478.009169886
 20
-300.2184291606
 10
473.976266162
 20
-302.7141725916
 10
469.9410418181
 20
-304.9877814204
 10
465.9127779996
 20
-307.034026274
 10
461.9007398422
 20
-308.8482007234
 10
457.9141551624
 20
-310.4261321095
 10
453.9621932326
 20
-311.7641911394
 10
450.053943692
 20
-312.8593002344
 10
446.1983956397
 20
-313.7089406087
 10
442.4044169597
 20
-314.311158062
 10
438.6807339247
 20
-314.6645674749
 10
435.0359111249
 20
-314.7683559946
 10
431.4783317697
 20
-314.622284904
 10
428.0161784054
 20
-314.2266901713
 10
424.6574140958
 20
-313.5824816771
 10
421.4097641064
 20
-312.6911411216
 10
418.2806981363
 20
-311.5547186166
 10
415.2774131375
 20
-310.1758279703
 10
412.4068167617
 20
-308.5576406753
 10
409.6755114726
 20
-306.7038786144
 10
407.0897793598
 20
-304.6188054997
 10
406.1726596098
 20
-303.7910449505
  0
LWPOLYLINE
  5
BD
330
1F
100
AcDbEntity
  8
0
  6
Continuous
 62
     7
370
    25
100
AcDbPolyline
 90
       24
 70
   128
 43
0.0
 10
423.2716410032
 20
-236.6952402327
 10
423.6030090306
 20
-234.6736764638
 10
424.4679990285
 20
-230.1938709448
 10
425.5199357382
 20
-225.6666298911
 10
426.7556797672
 20
-221.1054643691
 10
428.1715431695
 20
-216.5239866896
 10
429.7633004524
 20
-211.9358697827
 10
431.5262011864
 20
-207.3548063924
 10
433.454984183
 20
-202.7944682124
 10
435.5438931954
 20
-198.2684650842
 10
437.7866940984
 20
-193.7903043801
 10
440.1766934924
 20
-189.3733506917
 10
442.7067586799
 20
-185.0307859447
 10
445.369338952
 20
-180.7755700591
 10
448.1564881227
 20
-176.6204022717
 10
451.0598882434
 20
-172.5776832362
 10
454.070874427
 20
-168.6594780151
 10
457.1804607073
 20
-164.8774800728
 10
460.3793668566
 20
-161.2429763776
 10
463.6580460819
 20
-157.766813717
 10
467.0067135155
 20
-154.4593663267
 10
470.4153754178
 20
-151.3305049296
 10
473.8738590019
 20
-148.3895672779
 10
474.579727909
 20
-147.8173967732
  0
LWPOLYLINE
  5
BE
330
1F
100
AcDbEntity
  8
0
  6
Continuous
 62
     7
370
    25
100
AcDbPolyline
 90
       71
 70
   128
 43
0.0
 10
562.589287101
 20
-103.1472386341
 10
565.1916532531
 20
-104.7710605494
 10
568.0260327028
 20
-106.8422689797
 10
570.7124391555
 20
-109.1430132937
 10
573.2453844367
 20
-111.6685932026
 10
575.6196938844
 20
-114.4138490913
 10
577.8305169204
 20
-117.3731725594
 10
579.87333696
 20
-120.5405178786
 10
581.7439806389
 20
-123.9094143439
 10
583.4386263392
 20
-127.4729794929
 10
584.9538119968
 20
-131.2239331661
 10
586.2864421743
 20
-135.1546123802
 10
587.4337943846
 20
-139.2569869826
 10
588.3935246529
 20
-143.5226760573
 10
589.1636723052
 20
-147.9429650457
 10
589.7426639739
 20
-152.5088235509
 10
590.1293168124
 20
-157.2109237854
 10
590.3228409109
 20
-162.039659628
 10
590.3228409109
 20
-166.985166248
 10
590.1293168124
 20
-172.0373402588
 10
589.7426639739
 20
-177.1858603583
 10
589.1636723052
 20
-182.420208415
 10
588.3935246529
 20
-187.7296909558
 10
587.4337943846
 20
-193.103461012
 10
586.2864421743
 20
-198.5305402793
 10
584.9538119968
 20
-203.9998415458
 10
583.4386263392
 20
-209.5001913424
 10
581.7439806389
 20
-215.0203527696
 10
579.87333696
 20
-220.5490484539
 10
577.8305169204
 20
-226.0749835868
 10
575.6196938844
 20
-231.5868689996
 10
573.2453844367
 20
-237.073444226
 10
570.7124391555
 20
-242.5235005074
 10
568.0260327028
 20
-247.9259036909
 10
565.1916532531
 20
-253.2696169766
 10
562.2150912813
 20
-258.5437234643
 10
559.1024277328
 20
-263.7374484566
 10
555.860021601
 20
-268.8401814711
 10
552.4944969358
 20
-273.8414979166
 10
549.0127293111
 20
-278.73118039
 10
545.4218317789
 20
-283.4992395504
 10
541.7291403369
 20
-288.1359345261
 10
537.9421989423
 20
-292.6317928149
 10
534.0687440992
 20
-296.9776296359
 10
530.116689054
 20
-301.1645666936
 10
526.0941076286
 20
-305.1840503154
 10
522.0092177265
 20
-309.0278689266
 10
517.8703645437
 20
-312.688169826
 10
513.68600352
 20
-316.1574752288
 10
509.4646830652
 20
-319.4286975426
 10
505.2150270952
 20
-322.4951538477
 10
500.9457174135
 20
-325.3505795497
 10
496.6654759753
 20
-327.9891411774
 10
492.3830470686
 20
-330.4054483006
 10
488.1071794502
 20
-332.5945645424
 10
483.8466084726
 20
-334.5520176636
 10
479.6100382382
 20
-336.2738086997
 10
475.4061238174
 20
-337.7564201303
 10
471.2434535662
 20
-338.9968230652
 10
467.1305315816
 20
-339.9924834323
 10
463.0757603275
 20
-340.7413671545
 10
459.0874234692
 20
-341.2419443051
 10
455.1736689503
 20
-341.493192234
 10
451.3424923472
 20
-341.4945976558
 10
447.6017205341
 20
-341.2461576994
 10
443.9589956934
 20
-340.7483799133
 10
440.4217597033
 20
-340.0022812292
 10
436.9972389342
 20
-339.0093858838
 10
433.6924294859
 20
-337.7717223055
 10
430.5140828946
 20
-336.29181897
 10
428.6001769278
 20
-335.2483337521
  0
LWPOLYLINE
  5
BF
330
1F
100
AcDbEntity
  8
0
  6
Continuous
 62
     7
370
    25
100
AcDbPolyline
 90
       97
 70
   128
 43
0.0
 10
492.8100949279
 20
-87.6899575469
 10
495.2429475457
 20
-86.9259748948
 10
499.3818007286
 20
-85.8076576251
 10
503.4666906307
 20
-84.9351627449
 10
507.489272056
 20
-84.3102727113
 10
511.4413271012
 20
-83.9342641388
 10
515.3147819443
 20
-83.8079051914
 10
519.101723339
 20
-83.9314540131
 10
522.7944147809
 20
-84.3046582008
 10
526.3853123132
 20
-84.9267553198
 10
529.8670799378
 20
-85.7964744612
 10
533.232604603
 20
-86.9120388387
 10
536.4750107349
 20
-88.2711694182
 10
539.5876742833
 20
-89.8710895738
 10
542.5642362552
 20
-91.7085307602
 10
545.3986157048
 20
-93.7797391905
 10
548.0850221575
 20
-96.0804835045
 10
550.6179674387
 20
-98.6060634134
 10
552.9922768864
 20
-101.3513193022
 10
555.2030999225
 20
-104.3106427703
 10
557.2459199621
 20
-107.4779880895
 10
559.1165636409
 20
-110.8468845548
 10
560.8112093412
 20
-114.4104497037
 10
562.3263949989
 20
-118.161403377
 10
563.6590251764
 20
-122.092082591
 10
564.8063773867
 20
-126.1944571935
 10
565.7661076549
 20
-130.4601462681
 10
566.5362553072
 20
-134.8804352566
 10
567.115246976
 20
-139.4462937617
 10
567.5018998144
 20
-144.1483939963
 10
567.695423913
 20
-148.9771298389
 10
567.695423913
 20
-153.9226364589
 10
567.5018998144
 20
-158.9748104696
 10
567.115246976
 20
-164.1233305692
 10
566.5362553072
 20
-169.3576786259
 10
565.7661076549
 20
-174.6671611666
 10
564.8063773867
 20
-180.0409312228
 10
563.6590251764
 20
-185.4680104902
 10
562.3263949989
 20
-190.9373117567
 10
560.8112093412
 20
-196.4376615533
 10
559.1165636409
 20
-201.9578229804
 10
557.2459199621
 20
-207.4865186648
 10
555.2030999225
 20
-213.0124537977
 10
552.9922768864
 20
-218.5243392104
 10
550.6179674387
 20
-224.0109144368
 10
548.0850221575
 20
-229.4609707182
 10
545.3986157048
 20
-234.8633739018
 10
542.5642362552
 20
-240.2070871874
 10
539.5876742833
 20
-245.4811936751
 10
536.4750107349
 20
-250.6749186675
 10
533.232604603
 20
-255.777651682
 10
529.8670799378
 20
-260.7789681274
 10
526.3853123132
 20
-265.6686506009
 10
522.7944147809
 20
-270.4367097613
 10
519.101723339
 20
-275.0734047369
 10
515.3147819443
 20
-279.5692630257
 10
511.4413271012
 20
-283.9150998467
 10
507.489272056
 20
-288.1020369044
 10
503.4666906307
 20
-292.1215205262
 10
499.3818007286
 20
-295.9653391374
 10
495.2429475457
 20
-299.6256400369
 10
491.058586522
 20
-303.0949454396
 10
486.8372660672
 20
-306.3661677534
 10
482.5876100972
 20
-309.4326240585
 10
478.3183004156
 20
-312.2880497605
 10
474.0380589774
 20
-314.9266113882
 10
469.7556300706
 20
-317.3429185115
 10
465.4797624522
 20
-319.5320347532
 10
461.2191914746
 20
-321.4894878744
 10
456.9826212403
 20
-323.2112789106
 10
452.7787068194
 20
-324.6938903412
 10
448.6160365682
 20
-325.9342932761
 10
444.5031145836
 20
-326.9299536431
 10
440.4483433295
 20
-327.6788373653
 10
436.4600064712
 20
-328.179414516
 10
432.5462519524
 20
-328.4306624448
 10
428.7150753492
 20
-328.4320678666
 10
424.9743035361
 20
-328.1836279102
 10
421.3315786954
 20
-327.6858501242
 10
417.7943427053
 20
-326.9397514401
 10
414.3698219362
 20
-325.9468560947
 10
411.0650124879
 20
-324.7091925163
 10
407.8866658966
 20
-323.2292891808
 10
404.8412753423
 20
-321.5101694458
 10
401.9350623835
 20
-319.5553453745
 10
399.1739642466
 20
-317.3688105604
 10
396.563621697
 20
-314.9550319688
 10
394.1093675149
 20
-312.3189408111
 10
391.816215601
 20
-309.4659224705
 10
389.6888507332
 20
-306.4018055
 10
387.7316189961
 20
-303.1328497149
 10
385.9485189019
 20
-299.6657334047
 10
384.3431932221
 20
-296.0075396893
 10
382.9189215449
 20
-292.1657420488
 10
381.6786135758
 20
-288.1481890557
 10
380.6248031928
 20
-283.9630883405
 10
380.3192375064
 20
-282.5509515826
  0
ARC
  5
C0
330
1F
100
AcDbEntity
  8
0
  6
Continuous
 62
     7
370
    25
100
AcDbCircle
 10
592.3277345586
 20
-275.040559915
 30
0.0
 40
171.7967288987848
100
AcDbArc
 50
133.4585621581
 51
166.5468143746
  0
ENDSEC
  0
SECTION
  2
OBJECTS
  0
DICTIONARY
  5
C
330
0
100
AcDbDictionary
281
     1
  3
ACAD_GROUP
350
D
  3
ACAD_LAYOUT
350
1A
  3
ACAD_MLINESTYLE
350
17
  3
ACAD_PLOTSETTINGS
350
19
  3
ACAD_PLOTSTYLENAME
350
E
  3
ACAD_SCALELIST
350
47
  0
DICTIONARY
  5
D
102
{ACAD_REACTORS
330
C
102
}
330
C
100
AcDbDictionary
281
     1
  0
DICTIONARY
  5
1A
102
{ACAD_REACTORS
330
C
102
}
330
C
100
AcDbDictionary
281
     1
  3
Layout1
350
1E
  3
Layout2
350
26
  3
Model
350
22
  0
DICTIONARY
  5
17
102
{ACAD_REACTORS
330
C
102
}
330
C
100
AcDbDictionary
281
     1
  3
Standard
350
18
  0
DICTIONARY
  5
19
102
{ACAD_REACTORS
330
C
102
}
330
C
100
AcDbDictionary
281
     1
  0
ACDBDICTIONARYWDFLT
  5
E
102
{ACAD_REACTORS
330
C
102
}
330
C
100
AcDbDictionary
281
     1
  3
Normal
350
F
100
AcDbDictionaryWithDefault
340
F
  0
DICTIONARY
  5
47
102
{ACAD_REACTORS
330
C
102
}
330
C
100
AcDbDictionary
281
     1
  3
A0
350
48
  3
A1
350
49
  3
A2
350
4A
  3
A3
350
4B
  3
A4
350
4C
  3
A5
350
4D
  3
A6
350
4E
  3
A7
350
4F
  3
A8
350
50
  3
A9
350
51
  3
B0
350
52
  3
B1
350
53
  3
B2
350
54
  3
B3
350
55
  3
B4
350
56
  3
B5
350
57
  3
B6
350
58
  3
B7
350
59
  3
B8
350
5A
  3
B9
350
5B
  3
C0
350
5C
  3
C1
350
5D
  3
C2
350
5E
  3
C3
350
5F
  3
C4
350
60
  3
C5
350
61
  3
C6
350
62
  3
C7
350
63
  3
C8
350
64
  3
C9
350
65
  3
D0
350
66
  3
D1
350
67
  3
D2
350
68
  0
LAYOUT
  5
1E
102
{ACAD_REACTORS
330
1A
102
}
330
1A
100
AcDbPlotSettings
  1

  2
none_device
  4

  6

 40
0.0
 41
0.0
 42
0.0
 43
0.0
 44
0.0
 45
0.0
 46
0.0
 47
0.0
 48
0.0
 49
0.0
140
0.0
141
0.0
142
1.0
143
1.0
 70
   688
 72
     1
 73
     0
 74
     5
  7

 75
    16
147
1.0
148
0.0
149
0.0
100
AcDbLayout
  1
Layout1
 70
     1
 71
     1
 10
0.0
 20
0.0
 11
420.0
 21
297.0
 12
0.0
 22
0.0
 32
0.0
 14
1.0000000000E+20
 24
1.0000000000E+20
 34
1.0000000000E+20
 15
-1.0000000000E+20
 25
-1.0000000000E+20
 35
-1.0000000000E+20
146
0.0
 13
0.0
 23
0.0
 33
0.0
 16
1.0
 26
0.0
 36
0.0
 17
0.0
 27
1.0
 37
0.0
 76
     0
330
1B
  0
LAYOUT
  5
26
102
{ACAD_REACTORS
330
1A
102
}
330
1A
100
AcDbPlotSettings
  1

  2
none_device
  4

  6

 40
0.0
 41
0.0
 42
0.0
 43
0.0
 44
0.0
 45
0.0
 46
0.0
 47
0.0
 48
0.0
 49
0.0
140
0.0
141
0.0
142
1.0
143
1.0
 70
   688
 72
     1
 73
     0
 74
     5
  7

 75
    16
147
1.0
148
0.0
149
0.0
100
AcDbLayout
  1
Layout2
 70
     1
 71
     2
 10
0.0
 20
0.0
 11
0.0
 21
0.0
 12
0.0
 22
0.0
 32
0.0
 14
0.0
 24
0.0
 34
0.0
 15
0.0
 25
0.0
 35
0.0
146
0.0
 13
0.0
 23
0.0
 33
0.0
 16
1.0
 26
0.0
 36
0.0
 17
0.0
 27
1.0
 37
0.0
 76
     0
330
23
  0
LAYOUT
  5
22
102
{ACAD_REACTORS
330
1A
102
}
330
1A
100
AcDbPlotSettings
  1

  2
none_device
  4
Letter_(8.50_x_11.00_Inches)
  6

 40
6.35
 41
6.35
 42
6.35000508
 43
6.35000508
 44
215.9
 45
279.4
 46
0.0
 47
0.0
 48
0.0
 49
0.0
140
0.0
141
0.0
142
1.0
143
1.0
 70
  1712
 72
     1
 73
     0
 74
     0
  7

 75
     0
147
1.0
148
0.0
149
0.0
100
AcDbLayout
  1
Model
 70
     1
 71
     0
 10
0.0
 20
0.0
 11
279.4
 21
215.9
 12
0.0
 22
0.0
 32
0.0
 14
0.0
 24
0.0
 34
0.0
 15
279.4
 25
215.9
 35
0.0
146
0.0
 13
0.0
 23
0.0
 33
0.0
 16
1.0
 26
0.0
 36
0.0
 17
0.0
 27
1.0
 37
0.0
 76
     0
330
1F
331
29
  0
MLINESTYLE
  5
18
102
{ACAD_REACTORS
330
17
102
}
330
17
100
AcDbMlineStyle
  2
Standard
 70
     0
  3

 62
   256
 51
90.0
 52
90.0
 71
     2
 49
0.5
 62
   256
  6
BYLAYER
 49
-0.5
 62
   256
  6
BYLAYER
  0
ACDBPLACEHOLDER
  5
F
102
{ACAD_REACTORS
330
E
102
}
330
E
  0
SCALE
  5
48
102
{ACAD_REACTORS
330
47
102
}
330
47
100
AcDbScale
 70
     0
300
1:1
140
1.0
141
1.0
290
     1
  0
SCALE
  5
49
102
{ACAD_REACTORS
330
47
102
}
330
47
100
AcDbScale
 70
     0
300
1:2
140
1.0
141
2.0
290
     0
  0
SCALE
  5
4A
102
{ACAD_REACTORS
330
47
102
}
330
47
100
AcDbScale
 70
     0
300
1:4
140
1.0
141
4.0
290
     0
  0
SCALE
  5
4B
102
{ACAD_REACTORS
330
47
102
}
330
47
100
AcDbScale
 70
     0
300
1:5
140
1.0
141
5.0
290
     0
  0
SCALE
  5
4C
102
{ACAD_REACTORS
330
47
102
}
330
47
100
AcDbScale
 70
     0
300
1:8
140
1.0
141
8.0
290
     0
  0
SCALE
  5
4D
102
{ACAD_REACTORS
330
47
102
}
330
47
100
AcDbScale
 70
     0
300
1:10
140
1.0
141
10.0
290
     0
  0
SCALE
  5
4E
102
{ACAD_REACTORS
330
47
102
}
330
47
100
AcDbScale
 70
     0
300
1:16
140
1.0
141
16.0
290
     0
  0
SCALE
  5
4F
102
{ACAD_REACTORS
330
47
102
}
330
47
100
AcDbScale
 70
     0
300
1:20
140
1.0
141
20.0
290
     0
  0
SCALE
  5
50
102
{ACAD_REACTORS
330
47
102
}
330
47
100
AcDbScale
 70
     0
300
1:30
140
1.0
141
30.0
290
     0
  0
SCALE
  5
51
102
{ACAD_REACTORS
330
47
102
}
330
47
100
AcDbScale
 70
     0
300
1:40
140
1.0
141
40.0
290
     0
  0
SCALE
  5
52
102
{ACAD_REACTORS
330
47
102
}
330
47
100
AcDbScale
 70
     0
300
1:50
140
1.0
141
50.0
290
     0
  0
SCALE
  5
53
102
{ACAD_REACTORS
330
47
102
}
330
47
100
AcDbScale
 70
     0
300
1:100
140
1.0
141
100.0
290
     0
  0
SCALE
  5
54
102
{ACAD_REACTORS
330
47
102
}
330
47
100
AcDbScale
 70
     0
300
2:1
140
2.0
141
1.0
290
     0
  0
SCALE
  5
55
102
{ACAD_REACTORS
330
47
102
}
330
47
100
AcDbScale
 70
     0
300
4:1
140
4.0
141
1.0
290
     0
  0
SCALE
  5
56
102
{ACAD_REACTORS
330
47
102
}
330
47
100
AcDbScale
 70
     0
300
8:1
140
8.0
141
1.0
290
     0
  0
SCALE
  5
57
102
{ACAD_REACTORS
330
47
102
}
330
47
100
AcDbScale
 70
     0
300
10:1
140
10.0
141
1.0
290
     0
  0
SCALE
  5
58
102
{ACAD_REACTORS
330
47
102
}
330
47
100
AcDbScale
 70
     0
300
100:1
140
100.0
141
1.0
290
     0
  0
SCALE
  5
59
102
{ACAD_REACTORS
330
47
102
}
330
47
100
AcDbScale
 70
     0
300
1/128" = 1'-0"
140
0.0078125
141
12.0
290
     0
  0
SCALE
  5
5A
102
{ACAD_REACTORS
330
47
102
}
330
47
100
AcDbScale
 70
     0
300
1/64" = 1'-0"
140
0.015625
141
12.0
290
     0
  0
SCALE
  5
5B
102
{ACAD_REACTORS
330
47
102
}
330
47
100
AcDbScale
 70
     0
300
1/32" = 1'-0"
140
0.03125
141
12.0
290
     0
  0
SCALE
  5
5C
102
{ACAD_REACTORS
330
47
102
}
330
47
100
AcDbScale
 70
     0
300
1/16" = 1'-0"
140
0.0625
141
12.0
290
     0
  0
SCALE
  5
5D
102
{ACAD_REACTORS
330
47
102
}
330
47
100
AcDbScale
 70
     0
300
3/32" = 1'-0"
140
0.09375
141
12.0
290
     0
  0
SCALE
  5
5E
102
{ACAD_REACTORS
330
47
102
}
330
47
100
AcDbScale
 70
     0
300
1/8" = 1'-0"
140
0.125
141
12.0
290
     0
  0
SCALE
  5
5F
102
{ACAD_REACTORS
330
47
102
}
330
47
100
AcDbScale
 70
     0
300
3/16" = 1'-0"
140
0.1875
141
12.0
290
     0
  0
SCALE
  5
60
102
{ACAD_REACTORS
330
47
102
}
330
47
100
AcDbScale
 70
     0
300
1/4" = 1'-0"
140
0.25
141
12.0
290
     0
  0
SCALE
  5
61
102
{ACAD_REACTORS
330
47
102
}
330
47
100
AcDbScale
 70
     0
300
3/8" = 1'-0"
140
0.375
141
12.0
290
     0
  0
SCALE
  5
62
102
{ACAD_REACTORS
330
47
102
}
330
47
100
AcDbScale
 70
     0
300
1/2" = 1'-0"
140
0.5
141
12.0
290
     0
  0
SCALE
  5
63
102
{ACAD_REACTORS
330
47
102
}
330
47
100
AcDbScale
 70
     0
300
3/4" = 1'-0"
140
0.75
141
12.0
290
     0
  0
SCALE
  5
64
102
{ACAD_REACTORS
330
47
102
}
330
47
100
AcDbScale
 70
     0
300
1" = 1'-0"
140
1.0
141
12.0
290
     0
  0
SCALE
  5
65
102
{ACAD_REACTORS
330
47
102
}
330
47
100
AcDbScale
 70
     0
300
1-1/2" = 1'-0"
140
1.5
141
12.0
290
     0
  0
SCALE
  5
66
102
{ACAD_REACTORS
330
47
102
}
330
47
100
AcDbScale
 70
     0
300
3" = 1'-0"
140
3.0
141
12.0
290
     0
  0
SCALE
  5
67
102
{ACAD_REACTORS
330
47
102
}
330
47
100
AcDbScale
 70
     0
300
6" = 1'-0"
140
6.0
141
12.0
290
     0
  0
SCALE
  5
68
102
{ACAD_REACTORS
330
47
102
}
330
47
100
AcDbScale
 70
     0
300
1'-0" = 1'-0"
140
12.0
141
12.0
290
     0
  0
ENDSEC
  0
EOF
